当前位置:东东吉他谱文章资讯最新吉他谱
日期:2012-04-02 17:02:03  来源:本站整理

今天只做一件事 吉他谱

-------------------------------------------------------------------------------
歌曲名:今天只做一件事
歌手/乐队:陈奕迅
编配者(转载来源):Jo3
-------------------------------------------------------------------------------

Intro and Verse

-----------------------------------------------------------------------------------
---------1----1---------0-3--------------------1----1--------------------0--------
-----0-2----2---2-0-2------4---------------0-2----2----2--0---0-------0----------
---0-------0----0------------5------------0------0------0----4-------2------------
-----------------------------------------------------------------------------------
--3--------------------------------------3---------------------------0-------------


---------------------------------------------------------------------------------
-----------1-----1---------0--3--------------0-1-----1--------------------0------
-------0-2-----2----2-0-2------4-----------2-------2-----2-0---0-------0-------
----0---------0-----0------------5--------0-------0------0----4-------2---------
----------------------------------------------------------------------------------
--3--------------------------------------3----------------------------0-----------

Verse 1
发觉这世界永远太少空间
因此花一天支配一切时间
发觉这世界永远太晒心机
因此花一天思索一切道理
C             D          G
消失太快 捉得到太少
G           C         D      G
因此花一天感觉一切是爱

Pre-Chorus
Cmaj9
茫茫人海 或有几多漂泊与淹盖
Cmaj9
人人寻找爱 或有几多争斗与比赛
D       C/D     D
越觉得剩低几多未变的爱

Chorus
G
慢慢地合作新诗
B
静静地同床午睡
Em                   Bm
再发现岁月换来几次厌闷几多亲爱
Am7        G/B   Em7
有各样劫灾 和充满意外
        Am7                D7    Em7   D/F#
因此我要努力继续能恋爱
G
慢慢地迈向听朝
B
静静地怀念昨日
Em      D       C#m7
再决定今天只要相信爱
C             G/B   Em7
叫皱纹散开 唤青春归来
  G   G/B    D    Em
因此我喜欢花一天感觉一切是爱
-
------------------------------------7--5--3--2-----------------------
------------1------1-3----3-0------------------0h3---0--0--3--------
------0-2--------2-------2-------------------------2-----------------
----0----------0--------0--------------------------------------------
----------------------------------------------------------------------
--3-------------------------------------------------------------------


-----------------------------------------------7--5--3--2-----------
-------0--1-------1-3------3---0------0-------------------3--------
-------0--2-----2---------2----0----0---------------------2--------
----0---------0---------0----------0-------------------------------
---------------------------------------------------------------------
--3-----------------------------------------------------------------

Verse 2
发觉这世界永远太少深刻
因此花一天改变一切习惯
发觉这世界永远太多跷蹊
因此花一天拥有一切运气
C             D          G
消失太快 捉得到太少
G           C         D      G
因此花一天感觉一切是爱

Pre-Chorus
Cmaj9
茫茫人海 或有几多漂泊与淹盖
Cmaj9
人人寻找爱 或有几多争斗与比赛
D       C/D     D
越觉得剩低几多未变的爱

Chorus 2
G
慢慢地合唱k歌
B
静静地同游网上
Em                   Bm
再发现岁月换来几次厌闷几多亲爱
Am7        G/B   Em7
有各样劫灾 和充满意外
        Am7                D7    Em7   D/F#
因此我要努力继续能恋爱
G
慢慢地迈向听朝
B
静静地怀念昨日
Em                   Bm
再决定今天只要相信爱
Em      D       C#m7
叫皱纹散开 唤青春归来
C             G/B   Em7
因此我喜欢花一天感觉一切是爱
  G   G/B    D    Em
喜欢花一天跟你一切是爱

Tags:

作者:佚名

文章评论评论内容只代表网友观点,与本站立场无关!

   评论摘要(共 0 条,得分 0 分,平均 0 分) 查看完整评论
关于本站 - 网站帮助 - 广告合作 - 下载声明 - 友情连接- 网站地图
Copyright © 2010-2012 [蒙ICP备10001652号] 站长QQ: 635545075 吉他谱_吉他入门_吉他教学-东东吉他谱www.jitazhanfang.com .
页面执行时间:3,703.12500 毫秒