当前位置:东东吉他谱文章资讯国外吉他谱
日期:2012-07-28 08:08:49  来源:本站整理

Be The Rain吉他谱Neil Young原唱

The whole song is basically the progression D-Bflat-F-C. The numerous solos sound mainly
for a good song to jam on-so I didn’t bother tabbing them. Ther are at least two
on this song.

Tuning: D A D G B E

e----5-5--x5-55-11-1-1x-----1-1111x----0-0-0-0x---------------------
B----7-7--x7-77-33-3-3x-----1-1111x----1-1---1x---------------------
G----7-7--x7-77-33-3-3x-----2-2222x----0-0---0x---------------------
D----7-7--x7-77-33-3-3x-----3-3333x----2-2---2x---------------------
A----5-5--x5-55-11-1-1x-----3-3333x----3-3---3x---------------------
D-0----------------------0-----------0------------------------------

Every so often, a fill()is added here

()
e----5-5--x5-55-11-1-1x-----1-1111x----0-0-0-0x---------------------
B----7-7--x7-77-33-3-3x-----1-1111x----1-1---1x---------------------
G----7-7--x7-77-33-3-3x-----2-2222x----0-0---0x---------------------
D----7-7--x7-77-33-3-3x-----3-3333x----2-2---2x---------------------
A----5-5--x5-55-11-1-1x-----3-3333x----3-3---3x---------------------
D-0----------------------0-----------0------------------------------

Fill:
()
e-----------------------
B-----------------------
G-2-3-2-0---------------
D----------2-----0------
A------------0-3--------
D-----------------------

Tags:英文吉他谱

作者:佚名

文章评论评论内容只代表网友观点,与本站立场无关!

   评论摘要(共 0 条,得分 0 分,平均 0 分) 查看完整评论
关于本站 - 网站帮助 - 广告合作 - 下载声明 - 友情连接- 网站地图
Copyright © 2010-2012 [蒙ICP备10001652号] 站长QQ: 635545075 吉他谱_吉他入门_吉他教学-东东吉他谱www.jitazhanfang.com .
页面执行时间:12,609.38000 毫秒