当前位置:东东吉他谱文章资讯国外吉他谱
日期:2012-08-11 08:35:16  来源:本站整理

ROMEO AND JULIET吉他谱Dire Strai

ROMEO AND JULIET 吉他谱

INTRO:
E-0----0-------------------------------0----0-----0-----------------------
B-----1--------3-1-0-1----1-------0h1-3----1-----1-3-0-1----1-------------
G----0-------------------2----------------0-----0----------2--------------
D---2------2-2----------3-----3-3--------2-----2----------3-----3-3---5-5-
A-------3--3-3---------3---3--3-3-------------3----------3---3--3-3---5-5-
E--------3-3-3--------------1-1-1------------3----------------1-1-1-3-3-3-

E-0----0------------------------------------0-----0-----------------------0-
B-----1--------1-3-0-1--1--------0-5-3-5---1-----1-3-0-1----1-------------1-
G----0-----------------2------------------0-----0----------2--------------0-
D---2------2-2---------------3-3---------2-----2----------3-----3-3---5-5-2-
A-------3--3-3------------3--3-3--------------3----------3---3--3-3---5-5-3-
E--------3-3-3-------------1-1-1-------------3----------------1-1-1-3-3-3-3-

VERSE:
Am G C
E-------------------------0-------------------------3--0---
B-------------------------1-------------------------3--1---
G-------------------------2-------------------------0--0---
D-------------------------2-------------------------0--2---
A-------------------------0-------------------------2--3---
E-------------------------x-------------------------3--x---
.....A lovestruck Romeo......sings a streetsuss serenade....

G Am F G
E-----------------------3s-0---------------------1s-----------3--
B-----------------------3t-1---------------------1t---------1-3--
G-----------------------0r-2---------------------2r------0h2--0--
D-----------------------0u-2---------------------3u-----------0--
A-----------------------2m-0---------------------3m-----------2--
E-----------------------3--x---------------------1------------3--
...Laying everybody low.......with the love song that he made......

F G C F
E-----------------------1s-3---------------------0----------------------0--
B-----------------------1t-3---------------------1------------1---------1--
G-----------------------2r-0-------(light)-------0---------------2--0---2--
D-----------------------3u-0-----(strumming)-----2---------3------------3--
A-----------------------3m-2---------------------3------3---------------3--
E-----------------------1--3---------------------x---1------------------1--
......Finds a streetlight.....Steps out of the shade, says something like...

G C
E------------------------3--------------------0---
B------------------------3----------0-1-0-----1---
G-------(light)----------0----------------2-0-0---
D-----(strumming)--------0--------------------2---
A------------------------2--------------------3---
E------------------------3--------------------x---
....you and me, babe, how about it?................

Bridge:
G Am G C
E-------------------------------3--0-----------------------------------3--0-
B-------------------------------3--1-----------------------------------3--1-
G-------------------------------0--2-----------------------------------0--0-
D-------------------------------0--2-----------------------------------0--2-
A-------------------------------2--0-----------------------------------2--3-
E-------------------------------3--x-----------------------------------3--x-
...Juliet says, "Hey, it’s Romeo!.....you nearly gave me a ’eart attack!"....

G Am F G
E----------------------------3--0--------------------------1---------------3--
B----------------------------3--1--------------------------1-------------1-3--
G----------------------------0--2-------(light)------------2----------0h2--0--
D----------------------------0--2-----(strumming)----------3---------------0--
A----------------------------2--0--------------------------3---------------2--
E----------------------------3--x--------------------------1---------------3--
.....He’s underneath the window....she’s singing "Hey la my boyfriend’s back...

F G C F
E----------------------------1s-3-------------------------0------------0---
B----------------------------1t-3-------------------------1------------1---
G----------------------------2r-0---(light)---------------0----------0-2---
D----------------------------3u-0-(strumming)-------------2--------3---3---
A----------------------------3m-2-------------------------3------3-----3---
E----------------------------1--3-------------------------x--x-1-------1---
....Shouldn’t come around here, singing up at people like that..............

G
E----------------------------3----------------------
B----------------------------3----------------------
G-----------(light)----------0----------------------
D---------(strumming)--------0---------0-0-0-0---0--
A----------------------------2---------2-2-2-2---2--
E----------------------------3---------3-3-3-3---3--
...Anyway, what you gonna do about it?".......

CHORUS:
C G Am G F
E--0-------------3-------------0---------------3---1-------------------------
B--1-------------3-------------1---------------3---1-------------------------
G--0---(light)---0---(light)---2----(light)----0---2-----(light)-------------
D--2-(strumming)-0-(strumming)-2--(strumming)--0---3---(strumming)-----------
A--3-------------2-------------0---------------2---3-------------------------
E--x-------------3-------------x---------------3---1-------------------------
Juliet.............the dice was loaded.....from the start.....................

C G Am G F
E---0------------3-------------------0---------3---1-----------------------
B---1------------3-------------------1---------3---1-----------------------
G---0--(light)---0--(light)----------2---------0---2-----------------------
D---2(strumming)-0(strumming)--------2---------0---3-----------------------
A---3------------2-------------------0---------2---3-----------------------
E---x------------3-------------------x---------3---1-----------------------
And I bet.................and you exploded into my heart......

G C G Am F Dm
E--3-----0------3--0-----1----------------------1--------
B--3-----1------3--1-----1-------------------1--3--------
G--0-----0------0--2strum2----------------0h2-2-2-strum--
D--0-----2------0--2-----3----------------------0--------
A--2-----3------2--0-----3----------------------x--------
E--3-----x------3--x-----1----------------------x--------
And I forget, I forget.......the movie song...............

Em F G Am G C
E---------------------0-------1------------------3---0---3---0--------------
B---------------------0-------1------------------3---1---3---1--------------
G----------(light)----0-------2---(light)--------0---2---0---0--------------
D--------(strumming)--2-------3-(strumming)------0---2---0---2--------------
A---------------------2-------3------------------2---0---2---3--------------
E---------------------0-------1------------------3---x---3---x--------------
When you gonna realize it was just that the time was wrong........Juliet.....

E------0------------------------0----0-0s---0---------------------0--
B-----1-3-0-1----1-------1-0h1-3----1--1t--1-3-1----1-------------1--
G----0----------2------------------0---0r----------2--------------0--
D---2----------3-----3-3----------2----2u---------3-----3-3---5-5-2--
A--3----------3---3--3-3----------------m--------3---3--3-3---5-5-3--
E-3----------------1-1-1------------------------------1-1-1-3-3-3-3--

VERSE:
Am G C
E-----------------------------0----------------------------------3--0---
B---------------------------3-1----------------------------------3--1---
G-----------------------------2----------------------------------0--0---
D-----------------------------2----------------------------------0--2---
A-----------------------------0---------

Tags:英文吉他谱

作者:佚名

文章评论评论内容只代表网友观点,与本站立场无关!

   评论摘要(共 0 条,得分 0 分,平均 0 分) 查看完整评论
关于本站 - 网站帮助 - 广告合作 - 下载声明 - 友情连接- 网站地图
Copyright © 2010-2012 [蒙ICP备10001652号] 站长QQ: 635545075 吉他谱_吉他入门_吉他教学-东东吉他谱www.jitazhanfang.com .
页面执行时间:3,671.87500 毫秒