当前位置:东东吉他谱文章资讯原创吉他谱
日期:2012-08-12 08:21:29  来源:本站整理

勇者之歌吉他谱谢霆锋原唱

勇者之歌 吉他谱


1=#D 转 #B 4/4

前奏

--------------------------------------------------------^----
----4--3----------4--3------------4--3-----------4--3--4-6---
---------3--------------3---------------3--------------------
-------------------------------3--------------3--------------
-4-------------6---------------------------------------------

-------------------------------------------------4--3--------
----4--3----------4--3------------4--3-----------------------
---------3--------------3---------------3--------------------
-------------------------------3--------------3--------------
-4-------------6---------------------------------------------

#G #A C
---^-----------^-----------^-----------6--^--
-------4--4--------4--4-------4--3--4----6-8-
--2-3---------2-3---------2-3----------------
---------------------------------------------
---------------------------------------------
---------------------------------------------

#G #A CM C
--^-----------^-----------------^------^--
------4-4----------4--4--3------------6-8-
-2-3---------2-3------------3--3-5--------
------------------------------------------
------------------------------------------
------------------------------------------

[转1=#B]

F G
风吹过脸旁我的美丽海洋
Em Am
这个世界还有天堂
F G
爱你就从今天开始慢慢滋长
Em Am
抚平一切受过的伤
[转1=#D]
#G #D
你和我一样
#A C
都在期待一道光
# A C
遇到彩虹的魔法
[转1=#B]
G
跟着他
[转1=#D]
#G #A
DON’T GIVE UP``` NEVER GIVE UP```
C
明天还有希望
#G #A Cm C
忍着伤 它会给你力量
#G #A
DON’T GIVE UP```NEVER GIVE UP```
C
谁说没有梦想
#G #A Cm C
我知道泪水会被释放

#G #D #A C
----^-------------------^----------------------------------^------
--11-13--13-13-13--13---------------------------------------------
----------------------10-12--8----8---8--10---7-------------------
---------------------------------10---10-------------8----8-10----
------------------------------------------------------------------
------------------------------------------------------------------


#G #A Cm C
----^-------------------^----------------------^--------13-15--12-
--11-13--13-13-13--13------------------------11-13----------------
----------------------10-12-10--------12--------------------------
--------------------------------13-15-----------------------------
------------------------------------------------------------------
------------------------------------------------------------------

[转1=#B]
F G
诺你的心里还有一点恐慌
Em Am
记得我在等你招换
F G
爱已作出今天陪你乘风破浪
Em Am
永远其实非常简单
[转1=#D]
#G #D
你 和我一样
#A C
都在期待一道光
#A C
遇到彩虹的魔法
[转1=#B]
G
跟着他
[转1=#D]
#G #A
DON’T GIVE UP```NEVER GIVE UP```
C
明天还有希望
#G #A Cm C
忍着伤它会给你力量
#G #A
DON’T GIVE UP```NEVER GIVE UP```
C
谁说没有梦想
#G #A C
我知道泪水会被释放

#G #A C
---^-----------^-----------^-----------6--^--
-------4--4--------4--4-------4--3--4----6-8-
--2-3---------2-3---------2-3----------------
---------------------------------------------
---------------------------------------------
---------------------------------------------
G A Bm B
--^-----------^-----------------^------^--
------4-4----------4--4--3------------6-8-
-2-3---------2-3------------3--3-5--------
------------------------------------------
------------------------------------------
------------------------------------------


#G #A
DON’T GIVE UP```NEVER GIVE UP```
C
明天还有希望
#G #A Cm C
忍着伤它会给你力量
#G #A
DON’T GIVE UP```NEVER GIVE UP```
Cm
谁说没有梦想
#G #A Cm
我知道泪水会被释放

#G #A Cm
---^-------------^----------------------------------^--------
-11-13-13-13-11----------------------------8--11--11-13-13---
---------------10-12--10-----------------8-------------------
-------------------------13-12------8--8---------------------
----------------------------------10--10---------------------
-------------------------------------------------------------

#G #A C
---^---------------^-^--------^----------------
--9-11-11-11---9--8-9-8------6-8---------9-----
------------------------10-9----10-9---10--10--
-----------------------------------------------
-----------------------------------------------
-----------------------------------------------

#G #A C
--^---11-11----^---11-11-----^---11-10-11--18--
-9-11---------9-11----------9-11---------------
-----------------------------------------------
-----------------------------------------------
-----------------------------------------------


#G #A Cm C
--13^15---13-11--10^11^10---------10^11^10--------^--------10^12-12
------------------------11-11------------11-11--11-13-13-----------
-------------------------------------------------------------------
-------------------------------------------------------------------
-------------------------------------------------------------------
-------------------------------------------------------------------

Tags:原创吉他谱

作者:佚名

文章评论评论内容只代表网友观点,与本站立场无关!

   评论摘要(共 0 条,得分 0 分,平均 0 分) 查看完整评论
关于本站 - 网站帮助 - 广告合作 - 下载声明 - 友情连接- 网站地图
Copyright © 2010-2012 [蒙ICP备10001652号] 站长QQ: 635545075 吉他谱_吉他入门_吉他教学-东东吉他谱www.jitazhanfang.com .
页面执行时间:19,765.63000 毫秒