当前位置:东东吉他谱文章资讯最新吉他谱
日期:2012-08-15 08:35:25  来源:本站整理

忍者乱太狼吉他谱动漫原唱

忍者乱太狼 吉他谱

E ---------0-2-5-6-7-7-10-8-9-------------------------------------------------11-12-9-7-5-5-5-10---
B -------3------------------------10-11-12-12-12----11-12-10----10-12-12------------------------7-
G ---------------------------------------------------11------------11--------------------------
D -----------------------------------------------------------------------------------------
A -----------------------------------------------------------------------------------------
E -----------------------------------------------------------------------------------------

E ------------------------6-7-5-------------5-6-7-7-10-8-9--------------------------------------------
B -------8-8-7---6-7-5---------7-5---5-7-------------------10-11-12-12-12----11-12-10-----10--
G --------------7--------------------7-------------------------------------------11------------11------
D -----------------------------------------------------------------------------------------
A -----------------------------------------------------------------------------------------
E -----------------------------------------------------------------------------------------

E --------------11-12-9-7-5-5-5-10-7-9-10-9-10-13-14-12-10-9-10-10-10-12-9-7-5-6-6-12-12-
B -------12-12---------------------------------------------------------------------------------
G -----------------------------------------------------------------------------------------
D -----------------------------------------------------------------------------------------
A -----------------------------------------------------------------------------------------
E -----------------------------------------------------------------------------------------

E -------10-9-10-7-7-7-7-7-7-7-9-10-9-7-7-5-5-10-12-14-14-14-12-10-13-14-12-12-13-14--
B -----------------------------------------------------------------------------------------
G -----------------------------------------------------------------------------------------
D -----------------------------------------------------------------------------------------
A -----------------------------------------------------------------------------------------
E -----------------------------------------------------------------------------------------

E -------12-10-10-10-7-9-10-9-9-10-9-7-9-10-10-9-7-5-5-10-14-10-12-14-14-12-10-12-10---
B -----------------------------------------------------------------------------------------
G -----------------------------------------------------------------------------------------
D -----------------------------------------------------------------------------------------
A -----------------------------------------------------------------------------------------
E -----------------------------------------------------------------------------------------

E -------12-14-14-14-12-10-13-14-12-12-13-14-12-10-10-10-10-7-9-10-9-9-10-9-7-9-10-10-
B -----------------------------------------------------------------------------------------
G -----------------------------------------------------------------------------------------
D -----------------------------------------------------------------------------------------
A -----------------------------------------------------------------------------------------
E -----------------------------------------------------------------------------------------

E -------9-7-5-10-14-10-10-12-14-12-12-13-14-12-10-9-11-12-10-10--------------------------
B -----------------------------------------------------------------------------------------
G -----------------------------------------------------------------------------------------
D -----------------------------------------------------------------------------------------
A -----------------------------------------------------------------------------------------
E -----------------------------------------------------------------------------------------

Tags:最新吉他谱

作者:佚名

文章评论评论内容只代表网友观点,与本站立场无关!

   评论摘要(共 0 条,得分 0 分,平均 0 分) 查看完整评论
关于本站 - 网站帮助 - 广告合作 - 下载声明 - 友情连接- 网站地图
Copyright © 2010-2012 [蒙ICP备10001652号] 站长QQ: 635545075 吉他谱_吉他入门_吉他教学-东东吉他谱www.jitazhanfang.com .
页面执行时间:13,609.38000 毫秒